Moss Elixer

STATUE WITH A WALKMAN
A
He's a statue with a walkman
knows his hemogolobin count
Statue with a walkman
also the correct amount
E           D               A
pretty boy, pretty walkman, pretty sound.
He's a statue with a walkman
actually he's lying down
statue with a walkman
butterylies upon his crown
pretty boy, pretty rooster, pretty sound.
he's a statue with a walkman
basking in the dying rays
statue with a walkman
hardly moves at all these days
E                   D                    A
we're all different versions of the same thing
we're all different versions of the same thing

[A sort of G D A meander..]
Yeah, you know they say that old statue with a walkman
He dont' seem to cone around like he used to 
[etc]

statue with a walkman
vanished like the trilobyte
statue with a walkman
birds upon his head at night.
pretty line, pretty loser, pretty sound.
pretty day, pretty walkman, pretty sound.


WIDE OPEN STAR
G
I walk into the room and kneel down before you on a 
C       F         C          G
	wide open star, open star
I only hope that what i'm gonna do aint' gonna bore you on a 
wide open star, open star

F                    C
I dont' know why the sun don't shine.
F                G
Is it because of me?
		 C      F
I must've fallen down a mine.

The age of innocence is crumbling before you on a
wide open star, open star
And if I disappear, you won't forget I saw you on a
wide open star, open star

I couldn't see the countryside
it wasn't there for me
I must've lost a half of what I found

As I lay dying won't you leave the window open on a
wide open star, open star
The trick in life is how to function with out hoping on a
wide open star, open star

We just return from whence we came
There ain't no mystery
and in the blackest hole I call your name
your name

Wide Open star, open star.
Wide Open star, open star.


Subject: Heliotrope

(intro)
E-----0-------0---0---0-----0-----0---0---0-----0-------0---0--
B-3h5---5-5-3---1----------------------------------------------
G-------------------0---2h4---4-2---0--------------------------
D-------------------------------------------0h2---2-2-0--------
A---------------------------------------3-----------------3---2
E--------------------------------------------------------------

E-------0--------
B-----1---1------
G---0-------0----
D----------------
A-3-----------3--
E---------------3
(chord patterns)
 [C/G]             [F]                [FC]
E---------0------ E---------1------ E---------0------
B-----------1---- B-----------1---- B-----------1----
G-------0-----0-- G-------------2-- G-------------0--
D---------------- D-------3-------3 D-------2-------2
A-----3---------3 A---0-3---------- A---0-3----------
E-3-3------------ E-1-------------- E-1--------------

 [CD]              [DC]              [EmF]
E---------0------ E---------0------ E---------1------
B-----------3---- B-----------1---- B-----------1----
G-------------2-- G-------2-----0-- G-------0-----2--
D-------2-------0 D-----0---------2 D-----2---------3
A-----3---------- A---0------------ A---2------------
E-3-3------------ E-2-------------- E-4--------------

[C/G] Heliotrope, my love
Her face to the [F]heavens
The petals all [C/G]around her [FC]dial

                       A-1--
                       E---3
Her shadow[C/G] follows her
It looks like a [F]seven
[FC]And I'm as loaded as a gun
[C/G]She worships the [F]sun
                      E---0-----0--------
                      B-----1------------
                      G------------------
                      D------------------
                      A-2-----0----------
                      E-----------3---2-3
[C/G]She worships the [F]sun
[C/G] [CD]
[repeat chords]
I lie beneath the ground
My eyes are unseeing
My name is gone from all the files

The tombs are shimmering
Deep into her being
It could be lethal but its fun
[C/G]She worships the [F]sun
                                  E---------3---0--
                                  B-----------1---1
                                  G-------0--------
                                  D----------------
                                  A-----3----------
                                  E-3-3------------
[C/G]She worships the [F/C]sun[EmF]
[DC][C/G]She worships the sun

E------------------
B------------------
G-------0-----0----
D------------------
A-----3-----3------
E-3-3--------------

[repeat intro]

She's full of happy beams
No shadow within her
Your paranoia makes her smile

And when the cat's head grins
She's ready for dinner
You know you're gonna be the one
She worships the sun
She worships the sun
She worships the sun
I said now,
She worships the sun
--aidan

You and Oblivion

You and Oblivion
[D]     [A][G]

[D] All of the colors ran out [A] [G]
[D] Round the November Hour [A] [G]
(repeat chords)
We was a scuttle about
Do you remember how

You left your radio on
With berries all over it
When all the music was gone
You were in mover bit (?)

[D] Something about you [A] [G]
[D] You and oblivion [A] [G]
(chorus)

You held on tight to the rails
I held the other one
Seeking your personal grail
Just like your mother's one

Gliding past hedges and clocks
Off to infinity
I can remember your locks
And your virginity

(repeat chorus)

Sitting alone by the tombs
Under the obelisk
Mixing up powders with brooms
You should of got a whisk

This is the month of the dead
Leaves on your Ouija board
Carry them round in your head
They've got free room and board! Yeah!

Right when the death train got your ma..
Right when the death train got my pa..

Lets slip your hand on the platform
You said "I must be going, yeah!"
[G]"See you!"
"See you!"
[D][A][G]

(repeat first verse and chorus)

closing:
(he seems to have string six tuned down to a D here)
E--------------------------------------------------
B---------------------------------0h3-----3-3/7-0-5
G---------------0h2p0-------0----------------------
D-------0h2p0-----------0h4---2p0------------------
A-----0--------------------------------------------
D-0h4----------------------------------------------

E--------------------------------------------------
B-0-0-3-----0h3p2p0-------------3-------------0----
G-------0-----------2-----2h4-4---2p0-0---0-0---0--
D---------0-------------0---------------4----------
A--------------------------------------------------
D--------------------------------------------------

(really difficult for me around here)
E--------------------------------------------------
B-----3--------------------------------------------
G---0---2p0---0------------------------------------
D-4---------4---4h5p0---0h2-2h4p0-------------0h2-0
A-----------------------------------------0h4------
D-------------------------------------0h4----------

E-----------------------------0-------3-----3-----3
B-------------------------0h3-----3------3-----3---
G-----------------0-----2--------------------------
D-----------0-0h4----------------------------------
A-0-----0h4----------------------------------------
D--------------------------------------------------

E--/5-----5---3---3p2h3p2-----2h0---0---0----------
B-----------3---------------3------3---3--3p2------
G-----------------------------------------------0--
D---------------------------------------------0----
A--------------------------------------------------
D--------------------------------------------------

E--------------------------------------------------
B-------------------3------------------------------
G-------------------2------------------------------
D-0---0-------------0------------------------------
A---4---------------0------------------------------
D---------4h5---0---0------------------------------
()
--aidan